  0
SECTION
  2
HEADER
  9
$ACADVER
  1
AC1015
  9
$ACADMAINTVER
 70
     6
  9
$DWGCODEPAGE
  3
ANSI_1254
  9
$INSBASE
 10
0.0
 20
0.0
 30
0.0
  9
$EXTMIN
 10
0.0
 20
0.0
 30
0.0
  9
$EXTMAX
 10
279.4
 20
215.9
 30
0.0
  9
$LIMMIN
 10
0.0
 20
0.0
  9
$LIMMAX
 10
279.4
 20
215.9
  9
$ORTHOMODE
 70
     0
  9
$REGENMODE
 70
     1
  9
$FILLMODE
 70
     1
  9
$QTEXTMODE
 70
     0
  9
$MIRRTEXT
 70
     1
  9
$LTSCALE
 40
1.0
  9
$ATTMODE
 70
     1
  9
$TEXTSIZE
 40
3.5
  9
$TRACEWID
 40
1.0
  9
$TEXTSTYLE
  7
Standard
  9
$CLAYER
  8
0
  9
$CELTYPE
  6
ByLayer
  9
$CECOLOR
 62
   256
  9
$CELTSCALE
 40
1.0
  9
$DISPSILH
 70
     0
  9
$DIMSCALE
 40
1.0
  9
$DIMASZ
 40
3.5
  9
$DIMEXO
 40
1.0
  9
$DIMDLI
 40
3.75
  9
$DIMRND
 40
0.0
  9
$DIMDLE
 40
0.0
  9
$DIMEXE
 40
1.0
  9
$DIMTP
 40
0.0
  9
$DIMTM
 40
0.0
  9
$DIMTXT
 40
3.5
  9
$DIMCEN
 40
2.5
  9
$DIMTSZ
 40
0.0
  9
$DIMTOL
 70
     0
  9
$DIMLIM
 70
     0
  9
$DIMTIH
 70
     1
  9
$DIMTOH
 70
     1
  9
$DIMSE1
 70
     0
  9
$DIMSE2
 70
     0
  9
$DIMTAD
 70
     1
  9
$DIMZIN
 70
     0
  9
$DIMBLK
  1

  9
$DIMASO
 70
     1
  9
$DIMSHO
 70
     1
  9
$DIMPOST
  1

  9
$DIMAPOST
  1

  9
$DIMALT
 70
     0
  9
$DIMALTD
 70
     3
  9
$DIMALTF
 40
0.0393700787
  9
$DIMLFAC
 40
1.0
  9
$DIMTOFL
 70
     1
  9
$DIMTVP
 40
0.0
  9
$DIMTIX
 70
     0
  9
$DIMSOXD
 70
     0
  9
$DIMSAH
 70
     0
  9
$DIMBLK1
  1

  9
$DIMBLK2
  1

  9
$DIMSTYLE
  2
ISO-25
  9
$DIMCLRD
 70
     0
  9
$DIMCLRE
 70
     0
  9
$DIMCLRT
 70
     0
  9
$DIMTFAC
 40
1.0
  9
$DIMGAP
 40
1.524
  9
$DIMJUST
 70
     0
  9
$DIMSD1
 70
     0
  9
$DIMSD2
 70
     0
  9
$DIMTOLJ
 70
     0
  9
$DIMTZIN
 70
     0
  9
$DIMALTZ
 70
     0
  9
$DIMALTTZ
 70
     0
  9
$DIMUPT
 70
     0
  9
$DIMDEC
 70
     2
  9
$DIMTDEC
 70
     2
  9
$DIMALTU
 70
     2
  9
$DIMALTTD
 70
     3
  9
$DIMTXSTY
  7
Standard
  9
$DIMAUNIT
 70
     0
  9
$DIMADEC
 70
     2
  9
$DIMALTRND
 40
0.0
  9
$DIMAZIN
 70
     0
  9
$DIMDSEP
 70
    44
  9
$DIMATFIT
 70
     3
  9
$DIMFRAC
 70
     0
  9
$DIMLDRBLK
  1

  9
$DIMLUNIT
 70
     2
  9
$DIMLWD
 70
    -2
  9
$DIMLWE
 70
    -2
  9
$DIMTMOVE
 70
     0
  9
$LUNITS
 70
     2
  9
$LUPREC
 70
     2
  9
$SKETCHINC
 40
1.0
  9
$FILLETRAD
 40
10.0
  9
$AUNITS
 70
     0
  9
$AUPREC
 70
     2
  9
$MENU
  1
.
  9
$ELEVATION
 40
0.0
  9
$PELEVATION
 40
0.0
  9
$THICKNESS
 40
0.0
  9
$LIMCHECK
 70
     0
  9
$CHAMFERA
 40
0.0
  9
$CHAMFERB
 40
0.0
  9
$CHAMFERC
 40
0.0
  9
$CHAMFERD
 40
0.0
  9
$SKPOLY
 70
     0
  9
$TDCREATE
 40
2458985.65149706
  9
$TDUCREATE
 40
2458985.52649706
  9
$TDUPDATE
 40
2458985.651497373
  9
$TDUUPDATE
 40
2458985.526497373
  9
$TDINDWG
 40
0.0000000116
  9
$TDUSRTIMER
 40
0.0000000116
  9
$USRTIMER
 70
     1
  9
$ANGBASE
 50
0.0
  9
$ANGDIR
 70
     0
  9
$PDMODE
 70
     0
  9
$PDSIZE
 40
-1.0
  9
$PLINEWID
 40
0.0
  9
$SPLFRAME
 70
     0
  9
$SPLINETYPE
 70
     6
  9
$SPLINESEGS
 70
     8
  9
$HANDSEED
  5
C0
  9
$SURFTAB1
 70
     6
  9
$SURFTAB2
 70
     6
  9
$SURFTYPE
 70
     6
  9
$SURFU
 70
     6
  9
$SURFV
 70
     6
  9
$UCSBASE
  2

  9
$UCSNAME
  2

  9
$UCSORG
 10
0.0
 20
0.0
 30
0.0
  9
$UCSXDIR
 10
1.0
 20
0.0
 30
0.0
  9
$UCSYDIR
 10
0.0
 20
1.0
 30
0.0
  9
$UCSORTHOREF
  2

  9
$UCSORTHOVIEW
 70
     0
  9
$UCSORGTOP
 10
0.0
 20
0.0
 30
0.0
  9
$UCSORGBOTTOM
 10
0.0
 20
0.0
 30
0.0
  9
$UCSORGLEFT
 10
0.0
 20
0.0
 30
0.0
  9
$UCSORGRIGHT
 10
0.0
 20
0.0
 30
0.0
  9
$UCSORGFRONT
 10
0.0
 20
0.0
 30
0.0
  9
$UCSORGBACK
 10
0.0
 20
0.0
 30
0.0
  9
$PUCSBASE
  2

  9
$PUCSNAME
  2

  9
$PUCSORG
 10
0.0
 20
0.0
 30
0.0
  9
$PUCSXDIR
 10
1.0
 20
0.0
 30
0.0
  9
$PUCSYDIR
 10
0.0
 20
1.0
 30
0.0
  9
$PUCSORTHOREF
  2

  9
$PUCSORTHOVIEW
 70
     0
  9
$PUCSORGTOP
 10
0.0
 20
0.0
 30
0.0
  9
$PUCSORGBOTTOM
 10
0.0
 20
0.0
 30
0.0
  9
$PUCSORGLEFT
 10
0.0
 20
0.0
 30
0.0
  9
$PUCSORGRIGHT
 10
0.0
 20
0.0
 30
0.0
  9
$PUCSORGFRONT
 10
0.0
 20
0.0
 30
0.0
  9
$PUCSORGBACK
 10
0.0
 20
0.0
 30
0.0
  9
$USERI1
 70
     0
  9
$USERI2
 70
     0
  9
$USERI3
 70
     0
  9
$USERI4
 70
     0
  9
$USERI5
 70
     0
  9
$USERR1
 40
0.0
  9
$USERR2
 40
0.0
  9
$USERR3
 40
0.0
  9
$USERR4
 40
0.0
  9
$USERR5
 40
0.0
  9
$WORLDVIEW
 70
     1
  9
$SHADEDGE
 70
     3
  9
$SHADEDIF
 70
    70
  9
$TILEMODE
 70
     1
  9
$MAXACTVP
 70
    64
  9
$PINSBASE
 10
0.0
 20
0.0
 30
0.0
  9
$PLIMCHECK
 70
     0
  9
$PEXTMIN
 10
1.0000000000E+20
 20
1.0000000000E+20
 30
1.0000000000E+20
  9
$PEXTMAX
 10
-1.0000000000E+20
 20
-1.0000000000E+20
 30
-1.0000000000E+20
  9
$PLIMMIN
 10
0.0
 20
0.0
  9
$PLIMMAX
 10
420.0
 20
297.0
  9
$UNITMODE
 70
     0
  9
$VISRETAIN
 70
     1
  9
$PLINEGEN
 70
     0
  9
$PSLTSCALE
 70
     1
  9
$TREEDEPTH
 70
  3020
  9
$CMLSTYLE
  2
Standard
  9
$CMLJUST
 70
     0
  9
$CMLSCALE
 40
20.0
  9
$PROXYGRAPHICS
 70
     1
  9
$MEASUREMENT
 70
     1
  9
$CELWEIGHT
370
    -1
  9
$ENDCAPS
280
     0
  9
$JOINSTYLE
280
     0
  9
$LWDISPLAY
290
     1
  9
$INSUNITS
 70
     4
  9
$HYPERLINKBASE
  1

  9
$STYLESHEET
  1

  9
$XEDIT
290
     1
  9
$CEPSNTYPE
380
     0
  9
$PSTYLEMODE
290
     1
  9
$FINGERPRINTGUID
  2
{071a0dc9-4ecf-4c86-8680-75bfb488d9c9}
  9
$VERSIONGUID
  2
{FAEB1C32-E019-11D5-929B-00C0DF256EC4}
  9
$EXTNAMES
290
     1
  9
$PSVPSCALE
 40
0.0
  9
$OLESTARTUP
290
     0
  0
ENDSEC
  0
SECTION
  2
CLASSES
  0
CLASS
  1
ACDBDICTIONARYWDFLT
  2
AcDbDictionaryWithDefault
  3
ObjectDBX Classes
 90
        0
280
     0
281
     0
  0
CLASS
  1
VISUALSTYLE
  2
AcDbVisualStyle
  3
ObjectDBX Classes
 90
     4095
280
     0
281
     0
  0
CLASS
  1
MATERIAL
  2
AcDbMaterial
  3
ObjectDBX Classes
 90
     1153
280
     0
281
     0
  0
CLASS
  1
SCALE
  2
AcDbScale
  3
ObjectDBX Classes
 90
     1153
280
     0
281
     0
  0
CLASS
  1
TABLESTYLE
  2
AcDbTableStyle
  3
ObjectDBX Classes
 90
     4095
280
     0
281
     0
  0
CLASS
  1
MLEADERSTYLE
  2
AcDbMLeaderStyle
  3
ACDB_MLEADERSTYLE_CLASS
 90
     4095
280
     0
281
     0
  0
CLASS
  1
SUN
  2
AcDbSun
  3
SCENEOE
 90
     1153
280
     0
281
     0
  0
CLASS
  1
ACDBPLACEHOLDER
  2
AcDbPlaceHolder
  3
ObjectDBX Classes
 90
        0
280
     0
281
     0
  0
CLASS
  1
LAYOUT
  2
AcDbLayout
  3
ObjectDBX Classes
 90
        0
280
     0
281
     0
  0
ENDSEC
  0
SECTION
  2
TABLES
  0
TABLE
  2
VPORT
  5
8
330
0
100
AcDbSymbolTable
 70
     1
  0
VPORT
  5
29
330
8
100
AcDbSymbolTableRecord
100
AcDbViewportTableRecord
  2
*Active
 70
     0
 10
0.0
 20
0.0
 11
1.0
 21
1.0
 12
139.7
 22
107.95
 13
0.0
 23
0.0
 14
10.0
 24
10.0
 15
10.0
 25
10.0
 16
0.0
 26
0.0
 36
1.0
 17
0.0
 27
0.0
 37
0.0
 40
215.9
 41
1.2941176471
 42
50.0
 43
0.0
 44
0.0
 50
0.0
 51
0.0
 71
     0
 72
  2000
 73
     1
 74
     3
 75
     0
 76
     0
 77
     0
 78
     0
281
     0
 65
     1
110
0.0
120
0.0
130
0.0
111
1.0
121
0.0
131
0.0
112
0.0
122
1.0
132
0.0
 79
     0
146
0.0
  0
ENDTAB
  0
TABLE
  2
LTYPE
  5
5
330
0
100
AcDbSymbolTable
 70
     6
  0
LTYPE
  5
14
330
5
100
AcDbSymbolTableRecord
100
AcDbLinetypeTableRecord
  2
ByBlock
 70
     0
  3

 72
    65
 73
     0
 40
0.0
  0
LTYPE
  5
15
330
5
100
AcDbSymbolTableRecord
100
AcDbLinetypeTableRecord
  2
ByLayer
 70
     0
  3

 72
    65
 73
     0
 40
0.0
  0
LTYPE
  5
16
330
5
100
AcDbSymbolTableRecord
100
AcDbLinetypeTableRecord
  2
Continuous
 70
     0
  3
Solid line
 72
    65
 73
     0
 40
0.0
  0
LTYPE
  5
6E
330
5
100
AcDbSymbolTableRecord
100
AcDbLinetypeTableRecord
  2
HIDDEN
 70
     0
  3
Hidden __ __ __ __ __ __ __ __ __ __ __ __ __ __
 72
    65
 73
     2
 40
1.905
 49
1.27
 74
     0
 49
-0.635
 74
     0
  0
LTYPE
  5
6F
330
5
100
AcDbSymbolTableRecord
100
AcDbLinetypeTableRecord
  2
PHANTOM
 70
     0
  3
Phantom ______  __  __  ______  __  __  ______
 72
    65
 73
     6
 40
12.7
 49
6.35
 74
     0
 49
-1.27
 74
     0
 49
1.27
 74
     0
 49
-1.27
 74
     0
 49
1.27
 74
     0
 49
-1.27
 74
     0
  0
LTYPE
  5
70
330
5
100
AcDbSymbolTableRecord
100
AcDbLinetypeTableRecord
  2
CENTER
 70
     0
  3
Center ____ _ ____ _ ____ _ ____ _ ____ _ ____
 72
    65
 73
     4
 40
10.16
 49
6.35
 74
     0
 49
-1.27
 74
     0
 49
1.27
 74
     0
 49
-1.27
 74
     0
  0
LTYPE
  5
71
330
5
100
AcDbSymbolTableRecord
100
AcDbLinetypeTableRecord
  2
CENTERX2
 70
     0
  3
Center (2x) ________  __  ________  __  _____
 72
    65
 73
     4
 40
20.32
 49
12.7
 74
     0
 49
-2.54
 74
     0
 49
2.54
 74
     0
 49
-2.54
 74
     0
  0
LTYPE
  5
72
330
5
100
AcDbSymbolTableRecord
100
AcDbLinetypeTableRecord
  2
DOT2
 70
     0
  3
Dot (.5x) ........................................
 72
    65
 73
     2
 40
0.635
 49
0.0
 74
     0
 49
-0.635
 74
     0
  0
ENDTAB
  0
TABLE
  2
LAYER
  5
2
330
0
100
AcDbSymbolTable
 70
    17
  0
LAYER
  5
10
330
2
100
AcDbSymbolTableRecord
100
AcDbLayerTableRecord
  2
0
 70
     0
 62
     7
  6
Continuous
370
    -3
390
F
  0
LAYER
  5
73
330
2
100
AcDbSymbolTableRecord
100
AcDbLayerTableRecord
  2
FORMAT
 70
     0
 62
     7
  6
Continuous
370
    -3
390
F
  0
LAYER
  5
74
330
2
100
AcDbSymbolTableRecord
100
AcDbLayerTableRecord
  2
YARDIMCI_GEOMETRI
 70
     0
 62
    -6
  6
Continuous
290
     0
370
    -3
390
F
  0
LAYER
  5
75
330
2
100
AcDbSymbolTableRecord
100
AcDbLayerTableRecord
  2
SAYFA_CERCEVESI
 70
     0
 62
     7
  6
Continuous
370
    25
390
F
  0
LAYER
  5
76
330
2
100
AcDbSymbolTableRecord
100
AcDbLayerTableRecord
  2
ANTET
 70
     0
 62
     7
  6
Continuous
370
    -3
390
F
  0
LAYER
  5
77
330
2
100
AcDbSymbolTableRecord
100
AcDbLayerTableRecord
  2
OLCU
 70
     0
 62
   150
  6
Continuous
370
    -3
390
F
  0
LAYER
  5
78
330
2
100
AcDbSymbolTableRecord
100
AcDbLayerTableRecord
  2
METIN
 70
     0
 62
    96
  6
Continuous
370
    -3
390
F
  0
LAYER
  5
79
330
2
100
AcDbSymbolTableRecord
100
AcDbLayerTableRecord
  2
BALON
 70
     0
 62
     5
  6
Continuous
370
    -3
390
F
  0
LAYER
  5
7A
330
2
100
AcDbSymbolTableRecord
100
AcDbLayerTableRecord
  2
VURGU
 70
     0
 62
     7
  6
Continuous
370
    -3
390
F
  0
LAYER
  5
7B
330
2
100
AcDbSymbolTableRecord
100
AcDbLayerTableRecord
  2
SILIK
 70
     0
 62
     7
  6
Continuous
370
    -3
390
F
  0
LAYER
  5
7C
330
2
100
AcDbSymbolTableRecord
100
AcDbLayerTableRecord
  2
MODEL
 70
     0
 62
     7
  6
Continuous
370
    -3
390
F
  0
LAYER
  5
7D
330
2
100
AcDbSymbolTableRecord
100
AcDbLayerTableRecord
  2
DETAYLANDıRMA
 70
     0
 62
   190
  6
Continuous
370
    -3
390
F
  0
LAYER
  5
7E
330
2
100
AcDbSymbolTableRecord
100
AcDbLayerTableRecord
  2
TOLERANS
 70
     0
 62
   230
  6
Continuous
370
    -3
390
F
  0
LAYER
  5
7F
330
2
100
AcDbSymbolTableRecord
100
AcDbLayerTableRecord
  2
MERKEZ_CIZGILERI
 70
     0
 62
    30
  6
Continuous
370
    -3
390
F
  0
LAYER
  5
80
330
2
100
AcDbSymbolTableRecord
100
AcDbLayerTableRecord
  2
KESIT-DETAY_CIZGILERI
 70
     0
 62
     7
  6
Continuous
370
    -3
390
F
  0
LAYER
  5
81
330
2
100
AcDbSymbolTableRecord
100
AcDbLayerTableRecord
  2
\U+041E\U+0421\U+0415\U+0412\U+042B\U+0415
 70
     0
 62
     7
  6
Continuous
370
    -3
390
F
  0
LAYER
  5
82
330
2
100
AcDbSymbolTableRecord
100
AcDbLayerTableRecord
  2
\U+0412\U+041E\U+0414\U+042F\U+041D\U+042B\U+0415_\U+0417\U+041D\U+0410\U+041A\U+0418
 70
     0
 62
    11
  6
Continuous
370
    -3
390
F
  0
ENDTAB
  0
TABLE
  2
STYLE
  5
3
330
0
100
AcDbSymbolTable
 70
     1
  0
STYLE
  5
11
330
3
100
AcDbSymbolTableRecord
100
AcDbTextStyleTableRecord
  2
Standard
 70
     0
 40
0.0
 41
1.0
 50
0.0
 71
     0
 42
3.5
  3
txt
  4

  0
ENDTAB
  0
TABLE
  2
VIEW
  5
6
330
0
100
AcDbSymbolTable
 70
     0
  0
ENDTAB
  0
TABLE
  2
UCS
  5
7
330
0
100
AcDbSymbolTable
 70
     0
  0
ENDTAB
  0
TABLE
  2
APPID
  5
9
330
0
100
AcDbSymbolTable
 70
     1
  0
APPID
  5
12
330
9
100
AcDbSymbolTableRecord
100
AcDbRegAppTableRecord
  2
ACAD
 70
     0
  0
ENDTAB
  0
TABLE
  2
DIMSTYLE
  5
A
330
0
100
AcDbSymbolTable
 70
     1
100
AcDbDimStyleTable
  0
DIMSTYLE
105
27
330
A
100
AcDbSymbolTableRecord
100
AcDbDimStyleTableRecord
  2
ISO-25
 70
     0
 41
2.5
 42
0.625
 43
3.75
 44
1.25
 73
     0
 74
     0
 77
     1
 78
     8
140
2.5
141
2.5
143
0.0393700787
147
0.625
171
     3
172
     1
178
     0
271
     2
272
     2
274
     3
278
    44
283
     0
284
     8
340
11
  0
ENDTAB
  0
TABLE
  2
BLOCK_RECORD
  5
1
330
0
100
AcDbSymbolTable
 70
     1
  0
BLOCK_RECORD
  5
1F
330
1
100
AcDbSymbolTableRecord
100
AcDbBlockTableRecord
  2
*Model_Space
340
22
  0
BLOCK_RECORD
  5
1B
330
1
100
AcDbSymbolTableRecord
100
AcDbBlockTableRecord
  2
*Paper_Space
340
1E
  0
BLOCK_RECORD
  5
23
330
1
100
AcDbSymbolTableRecord
100
AcDbBlockTableRecord
  2
*Paper_Space0
340
26
  0
ENDTAB
  0
ENDSEC
  0
SECTION
  2
BLOCKS
  0
BLOCK
  5
20
330
1F
100
AcDbEntity
  8
0
100
AcDbBlockBegin
  2
*Model_Space
 70
     0
 10
0.0
 20
0.0
 30
0.0
  3
*Model_Space
  1

  0
ENDBLK
  5
21
330
1F
100
AcDbEntity
  8
0
100
AcDbBlockEnd
  0
BLOCK
  5
1C
330
1B
100
AcDbEntity
 67
     1
  8
0
100
AcDbBlockBegin
  2
*Paper_Space
 70
     0
 10
0.0
 20
0.0
 30
0.0
  3
*Paper_Space
  1

  0
ENDBLK
  5
1D
330
1B
100
AcDbEntity
 67
     1
  8
0
100
AcDbBlockEnd
  0
BLOCK
  5
24
330
23
100
AcDbEntity
  8
0
100
AcDbBlockBegin
  2
*Paper_Space0
 70
     0
 10
0.0
 20
0.0
 30
0.0
  3
*Paper_Space0
  1

  0
ENDBLK
  5
25
330
23
100
AcDbEntity
  8
0
100
AcDbBlockEnd
  0
ENDSEC
  0
SECTION
  2
ENTITIES
  0
CIRCLE
  5
83
330
1F
100
AcDbEntity
  8
0
  6
Continuous
 62
     7
370
    25
100
AcDbCircle
 10
135.9944086538
 20
118.27271875
 30
0.0
 40
250.0
  0
CIRCLE
  5
84
330
1F
100
AcDbEntity
  8
0
  6
Continuous
 62
     7
370
    25
100
AcDbCircle
 10
135.9944086538
 20
118.27271875
 30
0.0
 40
220.3
  0
CIRCLE
  5
85
330
1F
100
AcDbEntity
  8
0
  6
Continuous
 62
     7
370
    25
100
AcDbCircle
 10
135.9944086538
 20
118.27271875
 30
0.0
 40
265.0
  0
CIRCLE
  5
86
330
1F
100
AcDbEntity
  8
0
  6
Continuous
 62
     7
370
    25
100
AcDbCircle
 10
135.9944086538
 20
118.27271875
 30
0.0
 40
295.0
  0
LINE
  5
87
330
1F
100
AcDbEntity
  8
0
  6
Continuous
 62
     7
370
    25
100
AcDbLine
 10
430.9944086538
 20
631.9685510862
 30
0.0
 11
430.9944086538
 21
677.9685510862
 31
0.0
  0
LINE
  5
88
330
1F
100
AcDbEntity
  8
0
  6
Continuous
 62
     7
370
    25
100
AcDbLine
 10
-159.0055913462
 20
677.9685510862
 30
0.0
 11
-159.0055913462
 21
631.9685510862
 31
0.0
  0
LINE
  5
89
330
1F
100
AcDbEntity
  8
0
  6
Continuous
 62
     7
370
    25
100
AcDbLine
 10
400.9944086538
 20
677.9685510862
 30
0.0
 11
385.9944086538
 21
758.9685510862
 31
0.0
  0
LINE
  5
8A
330
1F
100
AcDbEntity
  8
0
  6
Continuous
 62
     7
370
    25
100
AcDbLine
 10
-114.0055913462
 20
758.9685510862
 30
0.0
 11
-129.0055913462
 21
677.9685510862
 31
0.0
  0
LINE
  5
8B
330
1F
100
AcDbEntity
  8
0
  6
Continuous
 62
     7
370
    25
100
AcDbLine
 10
385.9944086538
 20
758.9685510862
 30
0.0
 11
385.9944086538
 21
970.9685510862
 31
0.0
  0
LINE
  5
8C
330
1F
100
AcDbEntity
  8
0
  6
Continuous
 62
     7
370
    25
100
AcDbLine
 10
-114.0055913462
 20
970.9685510862
 30
0.0
 11
-114.0055913462
 21
758.9685510862
 31
0.0
  0
LINE
  5
8D
330
1F
100
AcDbEntity
  8
0
  6
Continuous
 62
     7
370
    25
100
AcDbLine
 10
430.9944086538
 20
631.9685510862
 30
0.0
 11
-159.0055913462
 21
631.9685510862
 31
0.0
  0
LINE
  5
8E
330
1F
100
AcDbEntity
  8
0
  6
Continuous
 62
     7
370
    25
100
AcDbLine
 10
430.9944086538
 20
677.9685510862
 30
0.0
 11
-159.0055913462
 21
677.9685510862
 31
0.0
  0
LINE
  5
8F
330
1F
100
AcDbEntity
  8
0
  6
Continuous
 62
     7
370
    25
100
AcDbLine
 10
385.9944086538
 20
758.9685510862
 30
0.0
 11
-114.0055913462
 21
758.9685510862
 31
0.0
  0
LINE
  5
90
330
1F
100
AcDbEntity
  8
0
  6
Continuous
 62
     7
370
    25
100
AcDbLine
 10
385.9944086538
 20
970.9685510862
 30
0.0
 11
-114.0055913462
 21
970.9685510862
 31
0.0
  0
LINE
  5
91
330
1F
100
AcDbEntity
  8
0
  6
Continuous
 62
     7
370
    25
100
AcDbLine
 10
-452.8136962573
 20
413.27271875
 30
0.0
 11
-498.8136962573
 21
413.27271875
 31
0.0
  0
LINE
  5
92
330
1F
100
AcDbEntity
  8
0
  6
Continuous
 62
     7
370
    25
100
AcDbLine
 10
-498.8136962573
 20
-176.72728125
 30
0.0
 11
-452.8136962573
 21
-176.72728125
 31
0.0
  0
LINE
  5
93
330
1F
100
AcDbEntity
  8
0
  6
Continuous
 62
     7
370
    25
100
AcDbLine
 10
-498.8136962573
 20
383.27271875
 30
0.0
 11
-579.8136962573
 21
368.27271875
 31
0.0
  0
LINE
  5
94
330
1F
100
AcDbEntity
  8
0
  6
Continuous
 62
     7
370
    25
100
AcDbLine
 10
-579.8136962573
 20
-131.72728125
 30
0.0
 11
-498.8136962573
 21
-146.72728125
 31
0.0
  0
LINE
  5
95
330
1F
100
AcDbEntity
  8
0
  6
Continuous
 62
     7
370
    25
100
AcDbLine
 10
-579.8136962573
 20
368.27271875
 30
0.0
 11
-791.8136962573
 21
368.27271875
 31
0.0
  0
LINE
  5
96
330
1F
100
AcDbEntity
  8
0
  6
Continuous
 62
     7
370
    25
100
AcDbLine
 10
-791.8136962573
 20
-131.72728125
 30
0.0
 11
-579.8136962573
 21
-131.72728125
 31
0.0
  0
LINE
  5
97
330
1F
100
AcDbEntity
  8
0
  6
Continuous
 62
     7
370
    25
100
AcDbLine
 10
-452.8136962573
 20
413.27271875
 30
0.0
 11
-452.8136962573
 21
-176.72728125
 31
0.0
  0
LINE
  5
98
330
1F
100
AcDbEntity
  8
0
  6
Continuous
 62
     7
370
    25
100
AcDbLine
 10
-498.8136962573
 20
413.27271875
 30
0.0
 11
-498.8136962573
 21
-176.72728125
 31
0.0
  0
LINE
  5
99
330
1F
100
AcDbEntity
  8
0
  6
Continuous
 62
     7
370
    25
100
AcDbLine
 10
-579.8136962573
 20
368.27271875
 30
0.0
 11
-579.8136962573
 21
-131.72728125
 31
0.0
  0
LINE
  5
9A
330
1F
100
AcDbEntity
  8
0
  6
Continuous
 62
     7
370
    25
100
AcDbLine
 10
-791.8136962573
 20
368.27271875
 30
0.0
 11
-791.8136962573
 21
-131.72728125
 31
0.0
  0
LINE
  5
9B
330
1F
100
AcDbEntity
  8
0
  6
Continuous
 62
     7
370
    25
100
AcDbLine
 10
-159.0055913462
 20
-472.4181728565
 30
0.0
 11
-159.0055913462
 21
-518.4181728565
 31
0.0
  0
LINE
  5
9C
330
1F
100
AcDbEntity
  8
0
  6
Continuous
 62
     7
370
    25
100
AcDbLine
 10
430.9944086538
 20
-518.4181728565
 30
0.0
 11
430.9944086538
 21
-472.4181728565
 31
0.0
  0
LINE
  5
9D
330
1F
100
AcDbEntity
  8
0
  6
Continuous
 62
     7
370
    25
100
AcDbLine
 10
-129.0055913462
 20
-518.4181728565
 30
0.0
 11
-114.0055913462
 21
-599.4181728565
 31
0.0
  0
LINE
  5
9E
330
1F
100
AcDbEntity
  8
0
  6
Continuous
 62
     7
370
    25
100
AcDbLine
 10
385.9944086538
 20
-599.4181728565
 30
0.0
 11
400.9944086538
 21
-518.4181728565
 31
0.0
  0
LINE
  5
9F
330
1F
100
AcDbEntity
  8
0
  6
Continuous
 62
     7
370
    25
100
AcDbLine
 10
-114.0055913462
 20
-599.4181728565
 30
0.0
 11
-114.0055913462
 21
-811.4181728565
 31
0.0
  0
LINE
  5
A0
330
1F
100
AcDbEntity
  8
0
  6
Continuous
 62
     7
370
    25
100
AcDbLine
 10
385.9944086538
 20
-811.4181728565
 30
0.0
 11
385.9944086538
 21
-599.4181728565
 31
0.0
  0
LINE
  5
A1
330
1F
100
AcDbEntity
  8
0
  6
Continuous
 62
     7
370
    25
100
AcDbLine
 10
-159.0055913462
 20
-472.4181728565
 30
0.0
 11
430.9944086538
 21
-472.4181728565
 31
0.0
  0
LINE
  5
A2
330
1F
100
AcDbEntity
  8
0
  6
Continuous
 62
     7
370
    25
100
AcDbLine
 10
-159.0055913462
 20
-518.4181728565
 30
0.0
 11
430.9944086538
 21
-518.4181728565
 31
0.0
  0
LINE
  5
A3
330
1F
100
AcDbEntity
  8
0
  6
Continuous
 62
     7
370
    25
100
AcDbLine
 10
-114.0055913462
 20
-599.4181728565
 30
0.0
 11
385.9944086538
 21
-599.4181728565
 31
0.0
  0
LINE
  5
A4
330
1F
100
AcDbEntity
  8
0
  6
Continuous
 62
     7
370
    25
100
AcDbLine
 10
-114.0055913462
 20
-811.4181728565
 30
0.0
 11
385.9944086538
 21
-811.4181728565
 31
0.0
  0
LINE
  5
A5
330
1F
100
AcDbEntity
  8
0
  6
Continuous
 62
     7
370
    25
100
AcDbLine
 10
784.5299881564
 20
-176.72728125
 30
0.0
 11
830.5299881564
 21
-176.72728125
 31
0.0
  0
LINE
  5
A6
330
1F
100
AcDbEntity
  8
0
  6
Continuous
 62
     7
370
    25
100
AcDbLine
 10
830.5299881564
 20
413.27271875
 30
0.0
 11
784.5299881564
 21
413.27271875
 31
0.0
  0
LINE
  5
A7
330
1F
100
AcDbEntity
  8
0
  6
Continuous
 62
     7
370
    25
100
AcDbLine
 10
830.5299881564
 20
-146.72728125
 30
0.0
 11
911.5299881564
 21
-131.72728125
 31
0.0
  0
LINE
  5
A8
330
1F
100
AcDbEntity
  8
0
  6
Continuous
 62
     7
370
    25
100
AcDbLine
 10
911.5299881564
 20
368.27271875
 30
0.0
 11
830.5299881564
 21
383.27271875
 31
0.0
  0
LINE
  5
A9
330
1F
100
AcDbEntity
  8
0
  6
Continuous
 62
     7
370
    25
100
AcDbLine
 10
911.5299881564
 20
-131.72728125
 30
0.0
 11
1123.5299881564
 21
-131.72728125
 31
0.0
  0
LINE
  5
AA
330
1F
100
AcDbEntity
  8
0
  6
Continuous
 62
     7
370
    25
100
AcDbLine
 10
1123.5299881564
 20
368.27271875
 30
0.0
 11
911.5299881564
 21
368.27271875
 31
0.0
  0
LINE
  5
AB
330
1F
100
AcDbEntity
  8
0
  6
Continuous
 62
     7
370
    25
100
AcDbLine
 10
784.5299881564
 20
118.27271875
 30
0.0
 11
784.5299881564
 21
413.27271875
 31
0.0
  0
LINE
  5
AC
330
1F
100
AcDbEntity
  8
0
  6
Continuous
 62
     7
370
    25
100
AcDbLine
 10
784.5299881564
 20
-176.72728125
 30
0.0
 11
784.5299881564
 21
118.27271875
 31
0.0
  0
LINE
  5
AD
330
1F
100
AcDbEntity
  8
0
  6
Continuous
 62
     7
370
    25
100
AcDbLine
 10
830.5299881564
 20
118.27271875
 30
0.0
 11
830.5299881564
 21
413.27271875
 31
0.0
  0
LINE
  5
AE
330
1F
100
AcDbEntity
  8
0
  6
Continuous
 62
     7
370
    25
100
AcDbLine
 10
830.5299881564
 20
-176.72728125
 30
0.0
 11
830.5299881564
 21
118.27271875
 31
0.0
  0
LINE
  5
AF
330
1F
100
AcDbEntity
  8
0
  6
Continuous
 62
     7
370
    25
100
AcDbLine
 10
911.5299881564
 20
118.27271875
 30
0.0
 11
911.5299881564
 21
368.27271875
 31
0.0
  0
LINE
  5
B0
330
1F
100
AcDbEntity
  8
0
  6
Continuous
 62
     7
370
    25
100
AcDbLine
 10
911.5299881564
 20
-131.72728125
 30
0.0
 11
911.5299881564
 21
118.27271875
 31
0.0
  0
LINE
  5
B1
330
1F
100
AcDbEntity
  8
0
  6
Continuous
 62
     7
370
    25
100
AcDbLine
 10
1123.5299881564
 20
118.27271875
 30
0.0
 11
1123.5299881564
 21
368.27271875
 31
0.0
  0
LINE
  5
B2
330
1F
100
AcDbEntity
  8
0
  6
Continuous
 62
     7
370
    25
100
AcDbLine
 10
1123.5299881564
 20
-131.72728125
 30
0.0
 11
1123.5299881564
 21
118.27271875
 31
0.0
  0
LINE
  5
B3
330
1F
100
AcDbEntity
  8
0
  6
Continuous
 62
     7
370
    25
100
AcDbLine
 10
1029.7545293335
 20
-376.5288273475
 30
0.0
 11
879.8478917219
 21
-289.9895674943
 31
0.0
  0
LINE
  5
B4
330
1F
100
AcDbEntity
  8
0
  6
Continuous
 62
     7
370
    25
100
AcDbLine
 10
629.8682085629
 20
-723.0139986846
 30
0.0
 11
779.7748461745
 21
-809.5532585378
 31
0.0
  0
LINE
  5
B5
330
1F
100
AcDbEntity
  8
0
  6
Continuous
 62
     7
370
    25
100
AcDbLine
 10
1076.0354647019
 20
-388.5613251168
 30
0.0
 11
1021.533694568
 21
-371.7830404543
 31
0.0
  0
LINE
  5
B6
330
1F
100
AcDbEntity
  8
0
  6
Continuous
 62
     7
370
    25
100
AcDbLine
 10
771.554011409
 20
-804.8074716446
 30
0.0
 11
813.3389589749
 21
-843.6143259473
 31
0.0
  0
LINE
  5
B7
330
1F
100
AcDbEntity
  8
0
  6
Continuous
 62
     7
370
    25
100
AcDbLine
 10
1142.0552620285
 20
-389.3985436411
 30
0.0
 11
1109.5283500939
 21
-370.6211570692
 31
0.0
  0
LINE
  5
B8
330
1F
100
AcDbEntity
  8
0
  6
Continuous
 62
     7
370
    25
100
AcDbLine
 10
814.5523239662
 20
-881.5899858738
 30
0.0
 11
847.0792359008
 21
-900.3673724457
 31
0.0
  0
LWPOLYLINE
  5
B9
330
1F
100
AcDbEntity
  8
0
  6
Continuous
 62
     7
370
    25
100
AcDbPolyline
 90
      168
 70
   128
 43
0.0
 10
578.0813548458
 20
-608.5527970673
 10
578.2064586679
 20
-600.8020328965
 10
578.5815930639
 20
-592.9177972672
 10
579.2062270728
 20
-584.9112494332
 10
580.0794765952
 20
-576.7937217677
 10
581.200105644
 20
-568.5767037233
 10
582.566528094
 20
-560.2718255703
 10
584.1768099271
 20
-551.8908419349
 10
586.0286719695
 20
-543.4456151623
 10
588.1194931175
 20
-534.9480985266
 10
590.4463140475
 20
-526.4103193124
 10
593.0058414047
 20
-517.8443617914
 10
595.7944524644
 20
-509.2623501187
 10
598.8082002595
 20
-500.676431172
 10
602.0428191669
 20
-492.0987573596
 10
605.4937309453
 20
-483.5414694194
 10
609.156051215
 20
-475.0166792358
 10
613.0245963712
 20
-466.5364526959
 10
617.0938909207
 20
-458.112792612
 10
621.3581752323
 20
-449.7576217331
 10
625.8114136883
 20
-441.4827658692
 10
630.4473032276
 20
-433.2999371535
 10
635.2592822671
 20
-425.220717465
 10
640.2405399885
 20
-417.2565420357
 10
645.3840259784
 20
-409.4186832653
 10
650.6824602078
 20
-401.7182347665
 10
656.1283433353
 20
-394.1660956629
 10
661.7139673224
 20
-386.7729551631
 10
667.431426343
 20
-379.5492774307
 10
673.2726279732
 20
-372.5052867736
 10
679.2293046452
 20
-365.650953173
 10
685.2930253494
 20
-358.9959781716
 10
691.4552075671
 20
-352.5497811424
 10
697.7071294185
 20
-346.3214859563
 10
704.0399420073
 20
-340.3199080689
 10
710.4446819455
 20
-334.5535420423
 10
716.9122840398
 20
-329.030549523
 10
723.4335941229
 20
-323.7587476892
 10
729.9993820094
 20
-318.7455981869
 10
736.6003545609
 20
-313.9981965686
 10
743.2271688388
 20
-309.5232622505
 10
749.8704453286
 20
-305.3271290017
 10
756.5207812152
 20
-301.4157359796
 10
763.168763692
 20
-297.7946193235
 10
769.804983283
 20
-294.4689043192
 10
776.4200471617
 20
-291.4432981445
 10
783.0045924447
 20
-288.7220832064
 10
789.5492994445
 20
-286.3091110805
 10
796.0449048603
 20
-284.2077970589
 10
802.4822148889
 20
-282.4211153167
 10
808.8521182378
 20
-280.951594702
 10
815.1455990213
 20
-279.8013151571
 10
821.3537495208
 20
-278.9719047739
 10
827.4677827938
 20
-278.4645374901
 10
833.4790451097
 20
-278.2799314274
 10
839.3790281989
 20
-278.418347875
 10
845.1593812952
 20
-278.8795909199
 10
850.8119229551
 20
-279.6630077241
 10
856.3286526381
 20
-280.7674894487
 10
861.70176203
 20
-282.1914728235
 10
866.9236460955
 20
-283.9329423591
 10
871.9869138416
 20
-285.9894332002
 10
876.884398779
 20
-288.3580346139
 10
881.6091690654
 20
-291.0353941099
 10
886.1545373167
 20
-294.0177221851
 10
890.5140700726
 20
-297.3007976876
 10
894.681596902
 20
-300.8799737912
 10
898.6512191365
 20
-304.7501845724
 10
902.4173182199
 20
-308.9059521806
 10
905.9745636601
 20
-313.3413945914
 10
909.3179205738
 20
-318.0502339321
 10
912.4426568133
 20
-323.0258053673
 10
915.3443496638
 20
-328.2610665318
 10
918.0188921036
 20
-333.748607499
 10
920.462498617
 20
-339.4806612682
 10
922.6717105521
 20
-345.4491147584
 10
924.6434010165
 20
-351.645520291
 10
926.3747793029
 20
-358.0611075469
 10
927.8633948389
 20
-364.6867959798
 10
929.1071406557
 20
-371.5132076686
 10
930.1042563701
 20
-378.5306805909
 10
930.8533306763
 20
-385.7292822985
 10
931.3533033436
 20
-393.0988239758
 10
931.6034667163
 20
-400.6288748604
 10
931.6034667163
 20
-408.3087770075
 10
931.3533033436
 20
-416.1276603743
 10
930.8533306763
 20
-424.0744582058
 10
930.1042563701
 20
-432.1379226983
 10
929.1071406557
 20
-440.3066409195
 10
927.8633948389
 20
-448.5690509623
 10
926.3747793029
 20
-456.9134583091
 10
924.6434010165
 20
-465.3280523844
 10
922.6717105521
 20
-473.8009232713
 10
920.462498617
 20
-482.3200785686
 10
918.0188921036
 20
-490.8734603645
 10
915.3443496638
 20
-499.4489623036
 10
912.4426568133
 20
-508.0344467218
 10
909.3179205738
 20
-516.6177618261
 10
905.97456366
 20
-525.1867588936
 10
902.4173182199
 20
-533.7293094674
 10
898.6512191365
 20
-542.2333225222
 10
894.681596902
 20
-550.6867615787
 10
890.5140700726
 20
-559.077661739
 10
886.1545373167
 20
-567.3941466224
 10
881.6091690654
 20
-575.6244451744
 10
876.884398779
 20
-583.7569083279
 10
871.9869138416
 20
-591.7800254905
 10
866.9236460955
 20
-599.6824408372
 10
861.70176203
 20
-607.4529693828
 10
856.3286526381
 20
-615.0806128129
 10
850.8119229551
 20
-622.5545750512
 10
845.1593812952
 20
-629.8642775401
 10
839.3790281989
 20
-636.999374213
 10
833.4790451097
 20
-643.9497661385
 10
827.4677827938
 20
-650.7056158139
 10
821.3537495208
 20
-657.2573610896
 10
815.1455990213
 20
-663.5957287028
 10
808.8521182378
 20
-669.7117474029
 10
802.4822148889
 20
-675.5967606493
 10
796.0449048603
 20
-681.2424388639
 10
789.5492994445
 20
-686.6407912205
 10
783.0045924447
 20
-691.784176955
 10
776.4200471617
 20
-696.66531618
 10
769.804983283
 20
-701.2773001888
 10
763.168763692
 20
-705.6136012338
 10
756.5207812152
 20
-709.6680817657
 10
749.8704453285
 20
-713.4350031208
 10
743.2271688388
 20
-716.909033643
 10
736.6003545609
 20
-720.0852562308
 10
729.9993820094
 20
-722.9591752961
 10
723.4335941229
 20
-725.5267231279
 10
716.9122840398
 20
-727.7842656493
 10
710.4446819455
 20
-729.7286075615
 10
704.0399420073
 20
-731.3569968658
 10
697.7071294185
 20
-732.6671287592
 10
691.4552075671
 20
-733.6571488966
 10
685.2930253494
 20
-734.3256560152
 10
679.2293046452
 20
-734.6717039179
 10
673.2726279732
 20
-734.6948028125
 10
667.431426343
 20
-734.3949200053
 10
661.7139673224
 20
-733.7724799467
 10
656.1283433353
 20
-732.8283636311
 10
650.6824602078
 20
-731.5639073496
 10
645.3840259784
 20
-729.9809007985
 10
640.2405399885
 20
-728.0815845467
 10
635.2592822671
 20
-725.8686468639
 10
630.4473032276
 20
-723.345219916
 10
625.8114136883
 20
-720.5148753316
 10
621.3581752323
 20
-717.381619147
 10
617.0938909207
 20
-713.9498861359
 10
613.0245963712
 20
-710.2245335327
 10
609.156051215
 20
-706.2108341573
 10
605.4937309453
 20
-701.9144689525
 10
602.0428191669
 20
-697.3415189427
 10
598.8082002595
 20
-692.4984566273
 10
595.7944524644
 20
-687.3921368195
 10
593.0058414047
 20
-682.0297869439
 10
590.4463140475
 20
-676.4189968071
 10
588.1194931175
 20
-670.5677078551
 10
586.0286719695
 20
-664.4842019332
 10
584.1768099271
 20
-658.1770895637
 10
582.566528094
 20
-651.6552977588
 10
581.200105644
 20
-644.9280573856
 10
580.0794765952
 20
-638.0048901005
 10
579.2062270728
 20
-630.8955948727
 10
578.5815930639
 20
-623.6102341146
 10
578.2064586679
 20
-616.1591194396
 10
578.0813548458
 20
-608.5527970673
  0
LWPOLYLINE
  5
BA
330
1F
100
AcDbEntity
  8
0
  6
Continuous
 62
     7
370
    25
100
AcDbPolyline
 90
      158
 70
   128
 43
0.0
 10
599.082426247
 20
-596.4291366067
 10
599.2071565479
 20
-589.1600456418
 10
599.5811477064
 20
-581.7585849299
 10
600.2038008092
 20
-574.2366072422
 10
601.0741187337
 20
-566.6061583473
 10
602.1907077443
 20
-558.8794577202
 10
603.5517797245
 20
-551.0688789746
 10
605.1551550403
 20
-543.1869300475
 10
606.9982660309
 20
-535.2462331686
 10
609.0781611203
 20
-527.2595046473
 10
611.3915095444
 20
-519.2395345084
 10
613.9346066843
 20
-511.1991660103
 10
616.7033799997
 20
-503.1512750774
 10
619.6933955498
 20
-495.1087496808
 10
622.8998650948
 20
-487.0844691988
 10
626.3176537629
 20
-479.0912837924
 10
629.9412882742
 20
-471.1419938267
 10
633.7649657049
 20
-463.2493293721
 10
637.782562781
 20
-455.4259298182
 10
641.9876456831
 20
-447.6843236334
 10
646.3734803506
 20
-440.0369083012
 10
650.9330432652
 20
-432.4959304671
 10
655.6590326983
 20
-425.0734663264
 10
660.5438804045
 20
-417.7814022855
 10
665.579763741
 20
-410.6314159268
 10
670.7586181952
 20
-403.6349573082
 10
676.072150299
 20
-396.8032306267
 10
681.5118509105
 20
-390.1471762758
 10
687.0690088401
 20
-383.6774533259
 10
692.7347248008
 20
-377.4044224544
 10
698.4999256601
 20
-371.338129354
 10
704.355378969
 20
-365.4882886456
 10
710.2917077475
 20
-359.8642683211
 10
716.299405501
 20
-354.4750747415
 10
722.3688514437
 20
-349.3293382138
 10
728.4903259057
 20
-344.4352991706
 10
734.6540258982
 20
-339.8007949739
 10
740.8500808119
 20
-335.4332473636
 10
747.0685682243
 20
-331.3396505732
 10
753.2995297889
 20
-327.5265601284
 10
759.5329871831
 20
-324.0000823494
 10
765.7589580877
 20
-320.7658645721
 10
771.967472172
 20
-317.8290861043
 10
778.1485870612
 20
-315.1944499318
 10
784.2924042577
 20
-312.8661751864
 10
790.3890849927
 20
-310.8479903902
 10
796.4288659823
 20
-309.1431274838
 10
802.4020750624
 20
-307.7543166514
 10
808.2991466778
 20
-306.6837819481
 10
814.1106372005
 20
-305.9332377387
 10
819.827240053
 20
-305.503885952
 10
825.4398006118
 20
-305.3964141561
 10
830.9393308677
 20
-305.6109944573
 10
836.3170238194
 20
-306.1472832248
 10
841.5642675769
 20
-307.0044216404
 10
846.6726591531
 20
-308.1810370743
 10
851.6340179199
 20
-309.6752452831
 10
856.440398709
 20
-311.4846534273
 10
861.0841045354
 20
-313.6063639029
 10
865.5576989233
 20
-316.0369789822
 10
869.8540178151
 20
-318.7726062545
 10
873.9661810439
 20
-321.8088648597
 10
877.8876033513
 20
-325.1408925036
 10
881.6120049336
 20
-328.7633532446
 10
885.1334214977
 20
-332.6704460389
 10
888.4462138129
 20
-336.85591403
 10
891.5450767412
 20
-341.3130545687
 10
894.4250477333
 20
-346.0347299467
 10
897.0815147758
 20
-351.013378827
 10
899.5102237762
 20
-356.2410283528
 10
901.7072853765
 20
-361.7093069153
 10
903.6691811807
 20
-367.4094575598
 10
905.3927693898
 20
-373.3323520096
 10
906.8752898328
 20
-379.4685052837
 10
908.1143683871
 20
-385.8080908867
 10
909.1080207801
 20
-392.3409565443
 10
909.8546557674
 20
-399.0566404617
 10
910.3530776802
 20
-405.9443880775
 10
910.6024883409
 20
-412.9931692853
 10
910.6024883409
 20
-420.1916960983
 10
910.3530776802
 20
-427.5284407255
 10
909.8546557674
 20
-434.9916540327
 10
909.1080207801
 20
-442.5693843572
 10
908.1143683871
 20
-450.249496648
 10
906.8752898328
 20
-458.0196918983
 10
905.3927693898
 20
-465.8675268419
 10
903.6691811807
 20
-473.7804338793
 10
901.7072853765
 20
-481.7457412041
 10
899.5102237762
 20
-489.7506930956
 10
897.0815147758
 20
-497.7824703458
 10
894.4250477333
 20
-505.8282107884
 10
891.5450767412
 20
-513.8750298962
 10
888.4462138129
 20
-521.9100414148
 10
885.1334214977
 20
-529.9203779984
 10
881.6120049336
 20
-537.8932118159
 10
877.8876033513
 20
-545.8157750936
 10
873.9661810439
 20
-553.6753805615
 10
869.8540178151
 20
-561.4594417707
 10
865.5576989233
 20
-569.1554932499
 10
861.0841045354
 20
-576.7512104672
 10
856.440398709
 20
-584.2344295671
 10
851.6340179199
 20
-591.5931668495
 10
846.6726591531
 20
-598.815637961
 10
841.5642675769
 20
-605.8902767658
 10
836.3170238194
 20
-612.8057538686
 10
830.9393308677
 20
-619.5509947568
 10
825.4398006118
 20
-626.1151975359
 10
819.827240053
 20
-632.4878502279
 10
814.1106372005
 20
-638.6587476044
 10
808.2991466778
 20
-644.6180075303
 10
802.4020750624
 20
-650.3560867887
 10
796.4288659823
 20
-655.8637963636
 10
790.3890849927
 20
-661.1323161553
 10
784.2924042577
 20
-666.1532091047
 10
778.1485870612
 20
-670.918434705
 10
771.967472172
 20
-675.4203618774
 10
765.7589580877
 20
-679.6517811921
 10
759.5329871831
 20
-683.6059164128
 10
753.2995297889
 20
-687.2764353488
 10
747.0685682243
 20
-690.6574599954
 10
740.8500808119
 20
-693.7435759468
 10
734.6540258982
 20
-696.5298410668
 10
728.4903259057
 20
-699.0117934034
 10
722.3688514436
 20
-701.1854583337
 10
716.299405501
 20
-703.0473549298
 10
710.2917077475
 20
-704.5945015321
 10
704.355378969
 20
-705.8244205251
 10
698.4999256601
 20
-706.7351423046
 10
692.7347248008
 20
-707.3252084317
 10
687.0690088401
 20
-707.5936739688
 10
681.5118509105
 20
-707.5401089926
 10
676.072150299
 20
-707.1645992826
 10
670.7586181952
 20
-706.4677461837
 10
665.579763741
 20
-705.4506656433
 10
660.5438804045
 20
-704.1149864239
 10
655.6590326983
 20
-702.4628474954
 10
650.9330432652
 20
-700.4968946091
 10
646.3734803506
 20
-698.2202760611
 10
641.9876456831
 20
-695.6366376505
 10
637.782562781
 20
-692.7501168411
 10
633.7649657049
 20
-689.5653361354
 10
629.9412882742
 20
-686.0873956723
 10
626.3176537629
 20
-682.3218650595
 10
622.8998650948
 20
-678.2747744544
 10
619.6933955498
 20
-673.9526049073
 10
616.7033799997
 20
-669.3622779827
 10
613.9346066843
 20
-664.5111446749
 10
611.3915095444
 20
-659.4069736359
 10
609.0781611203
 20
-654.057938735
 10
606.9982660309
 20
-648.4726059688
 10
605.1551550403
 20
-642.6599197436
 10
603.5517797245
 20
-636.6291885518
 10
602.1907077443
 20
-630.3900700651
 10
601.0741187337
 20
-623.9525556685
 10
600.2038008092
 20
-617.3269544604
 10
599.5811477064
 20
-610.5238767431
 10
599.2071565479
 20
-603.5542170316
 10
599.082426247
 20
-596.4291366067
  0
LWPOLYLINE
  5
BB
330
1F
100
AcDbEntity
  8
0
  6
Continuous
 62
     7
370
    25
100
AcDbPolyline
 90
       86
 70
   128
 43
0.0
 10
1029.7545293335
 20
-376.5288273475
 10
1031.5158066769
 20
-377.5746539631
 10
1036.0611749283
 20
-380.5569820383
 10
1040.4207076842
 20
-383.8400575408
 10
1044.5882345135
 20
-387.4192336444
 10
1048.5578567481
 20
-391.2894444256
 10
1052.3239558315
 20
-395.4452120338
 10
1055.8812012716
 20
-399.8806544446
 10
1059.2245581853
 20
-404.5894937854
 10
1062.3492944248
 20
-409.5650652205
 10
1065.2509872754
 20
-414.800326385
 10
1067.9255297152
 20
-420.2878673522
 10
1070.3691362285
 20
-426.0199211214
 10
1072.5783481636
 20
-431.9883746116
 10
1074.5500386281
 20
-438.1847801442
 10
1076.2814169145
 20
-444.6003674001
 10
1077.7700324505
 20
-451.226055833
 10
1079.0137782672
 20
-458.0524675218
 10
1080.0108939816
 20
-465.0699404441
 10
1080.7599682879
 20
-472.2685421518
 10
1081.2599409551
 20
-479.638083829
 10
1081.5101043278
 20
-487.1681347136
 10
1081.5101043278
 20
-494.8480368607
 10
1081.2599409551
 20
-502.6669202275
 10
1080.7599682879
 20
-510.613718059
 10
1080.0108939816
 20
-518.6771825515
 10
1079.0137782672
 20
-526.8459007727
 10
1077.7700324505
 20
-535.1083108155
 10
1076.2814169145
 20
-543.4527181623
 10
1074.5500386281
 20
-551.8673122376
 10
1072.5783481636
 20
-560.3401831245
 10
1070.3691362285
 20
-568.8593384218
 10
1067.9255297152
 20
-577.4127202177
 10
1065.2509872754
 20
-585.9882221568
 10
1062.3492944248
 20
-594.573706575
 10
1059.2245581853
 20
-603.1570216793
 10
1055.8812012716
 20
-611.7260187468
 10
1052.3239558315
 20
-620.2685693206
 10
1048.5578567481
 20
-628.7725823755
 10
1044.5882345135
 20
-637.2260214319
 10
1040.4207076842
 20
-645.6169215922
 10
1036.0611749283
 20
-653.9334064756
 10
1031.5158066769
 20
-662.1637050276
 10
1026.7910363905
 20
-670.2961681811
 10
1021.8935514532
 20
-678.3192853437
 10
1016.8302837071
 20
-686.2217006904
 10
1011.6083996416
 20
-693.992229236
 10
1006.2352902496
 20
-701.6198726661
 10
1000.7185605667
 20
-709.0938349045
 10
995.0660189068
 20
-716.4035373933
 10
989.2856658104
 20
-723.5386340662
 10
983.3856827212
 20
-730.4890259917
 10
977.3744204053
 20
-737.2448756671
 10
971.2603871324
 20
-743.7966209428
 10
965.0522366328
 20
-750.134988556
 10
958.7587558494
 20
-756.2510072561
 10
952.3888525004
 20
-762.1360205025
 10
945.9515424718
 20
-767.7816987171
 10
939.4559370561
 20
-773.1800510737
 10
932.9112300562
 20
-778.3234368082
 10
926.3266847732
 20
-783.2045760332
 10
919.7116208946
 20
-787.816560042
 10
913.0754013035
 20
-792.152861087
 10
906.4274188268
 20
-796.2073416189
 10
899.7770829401
 20
-799.974262974
 10
893.1338064503
 20
-803.4482934962
 10
886.5069921724
 20
-806.624516084
 10
879.906019621
 20
-809.4984351493
 10
873.3402317344
 20
-812.0659829811
 10
866.8189216514
 20
-814.3235255025
 10
860.351319557
 20
-816.2678674147
 10
853.9465796188
 20
-817.896256719
 10
847.61376703
 20
-819.2063886124
 10
841.3618451786
 20
-820.1964087498
 10
835.1996629609
 20
-820.8649158684
 10
829.1359422568
 20
-821.2109637711
 10
823.1792655847
 20
-821.2340626657
 10
817.3380639546
 20
-820.9341798585
 10
811.620604934
 20
-820.3117397999
 10
806.0349809468
 20
-819.3676234843
 10
800.5890978193
 20
-818.1031672028
 10
795.29066359
 20
-816.5201606517
 10
790.1471776
 20
-814.6208443999
 10
785.1659198787
 20
-812.4079067171
 10
780.3539408392
 20
-809.8844797692
 10
779.7748461745
 20
-809.5532585378
  0
LWPOLYLINE
  5
BC
330
1F
100
AcDbEntity
  8
0
  6
Continuous
 62
     7
370
    25
100
AcDbPolyline
 90
       30
 70
   128
 43
0.0
 10
787.4476550594
 20
-663.5914989429
 10
788.4751489592
 20
-657.8228677112
 10
790.078524275
 20
-649.9409187841
 10
791.9216352655
 20
-642.0002219052
 10
794.001530355
 20
-634.0134933839
 10
796.314878779
 20
-625.993523245
 10
798.857975919
 20
-617.9531547469
 10
801.6267492343
 20
-609.9052638141
 10
804.6167647845
 20
-601.8627384174
 10
807.8232343294
 20
-593.8384579354
 10
811.2410229975
 20
-585.8452725291
 10
814.8646575088
 20
-577.8959825634
 10
818.6883349396
 20
-570.0033181087
 10
822.7059320156
 20
-562.1799185548
 10
826.9110149178
 20
-554.43831237
 10
831.2968495853
 20
-546.7908970378
 10
835.8564124999
 20
-539.2499192037
 10
840.582401933
 20
-531.827455063
 10
845.4672496392
 20
-524.5353910221
 10
850.5031329757
 20
-517.3854046635
 10
855.6819874298
 20
-510.3889460449
 10
860.9955195337
 20
-503.5572193633
 10
866.4352201452
 20
-496.9011650124
 10
871.9923780747
 20
-490.4314420626
 10
877.6580940355
 20
-484.158411191
 10
883.4232948947
 20
-478.0921180907
 10
889.2787482036
 20
-472.2422773823
 10
895.2150769822
 20
-466.6182570578
 10
901.2227747356
 20
-461.2290634781
 10
907.19181446
 20
-456.1660559727
  0
LWPOLYLINE
  5
BD
330
1F
100
AcDbEntity
  8
0
  6
Continuous
 62
     7
370
    25
100
AcDbPolyline
 90
       96
 70
   128
 43
0.0
 10
1076.0354647019
 20
-388.5613251168
 10
1076.5640826263
 20
-388.7257863011
 10
1081.904376821
 20
-390.5871178936
 10
1087.0847360366
 20
-392.7627025265
 10
1092.0982481032
 20
-395.2496373099
 10
1096.938223475
 20
-398.0446039188
 10
1101.5982041572
 20
-401.1438730201
 10
1106.0719723225
 20
-404.5433092488
 10
1110.3535586073
 20
-408.2383767263
 10
1114.4372500771
 20
-412.2241451118
 10
1118.3175978491
 20
-416.4952961817
 10
1121.9894243626
 20
-421.0461309251
 10
1125.4478302875
 20
-425.8705771484
 10
1128.6882010616
 20
-430.9621975774
 10
1131.7062130474
 20
-436.3141984462
 10
1134.4978393019
 20
-441.9194385626
 10
1137.059354949
 20
-447.7704388366
 10
1139.3873421499
 20
-453.8593922593
 10
1141.4786946639
 20
-460.1781743204
 10
1143.3306219924
 20
-466.7183538483
 10
1144.9406531028
 20
-473.4712042602
 10
1146.3066397252
 20
-480.4277152059
 10
1147.4267592193
 20
-487.5786045899
 10
1148.2995170061
 20
-494.9143309575
 10
1148.9237485619
 20
-502.4251062248
 10
1149.2986209725
 20
-510.1009087401
 10
1149.4236340445
 20
-517.931496655
 10
1149.2986209725
 20
-525.9064215905
 10
1148.9237485619
 20
-534.0150425783
 10
1148.2995170061
 20
-542.2465402589
 10
1147.4267592193
 20
-550.5899313183
 10
1146.3066397252
 20
-559.0340831424
 10
1144.9406531028
 20
-567.5677286721
 10
1143.3306219924
 20
-576.1794814362
 10
1141.4786946639
 20
-584.857850745
 10
1139.3873421499
 20
-593.591257022
 10
1137.059354949
 20
-602.3680472547
 10
1134.4978393019
 20
-611.1765105434
 10
1131.7062130474
 20
-620.0048937267
 10
1128.6882010616
 20
-628.8414170642
 10
1125.4478302875
 20
-637.6742899541
 10
1121.9894243626
 20
-646.4917266651
 10
1118.3175978491
 20
-655.2819620629
 10
1114.4372500771
 20
-664.0332673075
 10
1110.3535586073
 20
-672.733965504
 10
1106.0719723225
 20
-681.3724472824
 10
1101.5982041572
 20
-689.9371862882
 10
1096.938223475
 20
-698.4167545623
 10
1092.0982481032
 20
-706.799837789
 10
1087.0847360366
 20
-715.0752503933
 10
1081.904376821
 20
-723.2319504649
 10
1076.5640826263
 20
-731.2590544925
 10
1071.0709790246
 20
-739.1458518849
 10
1065.4323954818
 20
-746.8818192627
 10
1059.6558555785
 20
-754.4566344994
 10
1053.7490669706
 20
-761.8601904944
 10
1047.7199111054
 20
-769.0826086586
 10
1041.5764327053
 20
-776.1142520962
 10
1035.3268290334
 20
-782.9457384622
 10
1028.9794389564
 20
-789.5679524822
 10
1022.5427318175
 20
-795.9720581144
 10
1016.025296136
 20
-802.1495103397
 10
1009.4358281476
 20
-808.0920665637
 10
1002.783120201
 20
-813.791797614
 10
996.0760490259
 20
-819.241098321
 10
989.3235638894
 20
-824.432697665
 10
982.5346746544
 20
-829.3596684781
 10
975.7184397578
 20
-834.0154366871
 10
968.8839541242
 20
-838.3937900852
 10
962.0403370301
 20
-842.4888866212
 10
955.1967199359
 20
-846.2952621946
 10
948.3622343023
 20
-849.8078379458
 10
941.5459994058
 20
-853.0219270338
 10
934.7571101707
 20
-855.9332408889
 10
928.0046250342
 20
-858.5378949356
 10
921.2975538592
 20
-860.8324137754
 10
914.6448459125
 20
-862.8137358245
 10
908.0553779241
 20
-864.4792173983
 10
901.5379422426
 20
-865.8266362394
 10
895.1012351037
 20
-866.8541944824
 10
888.7538450267
 20
-867.560521053
 10
882.5042413549
 20
-867.9446734973
 10
876.3607629547
 20
-868.0061392395
 10
870.3316070895
 20
-867.7448362657
 10
864.4248184816
 20
-867.1611132332
 10
858.6482785783
 20
-866.2557490056
 10
853.0096950356
 20
-865.0299516133
 10
847.5165914339
 20
-863.4853566419
 10
842.1762972392
 20
-861.6240250493
 10
836.9959380235
 20
-859.4484404165
 10
831.982425957
 20
-856.9615056331
 10
827.1424505851
 20
-854.1665390242
 10
822.4824699029
 20
-851.0672699229
 10
818.0087017377
 20
-847.6678336941
 10
813.7271154528
 20
-843.9727662167
 10
813.3389589749
 20
-843.6143259473
  0
LWPOLYLINE
  5
BE
330
1F
100
AcDbEntity
  8
0
  6
Continuous
 62
     7
370
    25
100
AcDbPolyline
 90
       93
 70
   128
 43
0.0
 10
1142.0552620285
 20
-389.3985436411
 10
1145.836488844
 20
-391.6962905576
 10
1150.7039715824
 20
-395.0144661177
 10
1155.3853832377
 20
-398.6304146815
 10
1159.8751448833
 20
-402.539827055
 10
1164.1679059854
 20
-406.7380443174
 10
1168.2585507794
 20
-411.2200633739
 10
1172.1422043667
 20
-415.9805429178
 10
1175.8142385238
 20
-421.0138097955
 10
1179.2702772183
 20
-426.3138657678
 10
1182.5062018235
 20
-431.8743946579
 10
1185.518156027
 20
-437.6887698783
 10
1188.3025504259
 20
-443.7500623284
 10
1190.8560668049
 20
-450.0510486512
 10
1193.1756620903
 20
-456.5842198423
 10
1195.2585719764
 20
-463.3417901983
 10
1197.1023142203
 20
-470.3157065946
 10
1198.7046915995
 20
-477.4976580835
 10
1200.0637945305
 20
-484.8790857976
 10
1201.1780033446
 20
-492.4511931499
 10
1202.0459902183
 20
-500.2049563171
 10
1202.6667207552
 20
-508.1311349931
 10
1203.0394552189
 20
-516.2202834009
 10
1203.1637494147
 20
-524.4627615496
 10
1203.0394552189
 20
-532.848746722
 10
1202.6667207552
 20
-541.3682451814
 10
1202.0459902183
 20
-550.0111040802
 10
1201.1780033446
 20
-558.7670235603
 10
1200.0637945305
 20
-567.6255690269
 10
1198.7046915995
 20
-576.576183584
 10
1197.1023142203
 20
-585.6082006151
 10
1195.2585719764
 20
-594.7108564948
 10
1193.1756620903
 20
-603.873303416
 10
1190.8560668049
 20
-613.0846223177
 10
1188.3025504259
 20
-622.3338358969
 10
1185.518156027
 20
-631.6099216912
 10
1182.5062018235
 20
-640.9018252137
 10
1179.2702772183
 20
-650.1984731274
 10
1175.8142385238
 20
-659.4887864414
 10
1172.1422043667
 20
-668.7616937136
 10
1168.2585507794
 20
-678.0061442453
 10
1164.1679059854
 20
-687.21112125
 10
1159.8751448833
 20
-696.3656549827
 10
1155.3853832377
 20
-705.4588358126
 10
1150.7039715824
 20
-714.4798272241
 10
1145.836488844
 20
-723.4178787315
 10
1140.7887356939
 20
-732.2623386897
 10
1135.5667276347
 20
-741.0026669887
 10
1130.1766878322
 20
-749.6284476141
 10
1124.6250396987
 20
-758.1294010601
 10
1118.9183992381
 20
-766.4953965799
 10
1113.0635671618
 20
-774.7164642584
 10
1107.0675207838
 20
-782.782806894
 10
1100.9374057058
 20
-790.6848116737
 10
1094.6805273019
 20
-798.4130616291
 10
1088.3043420122
 20
-805.9583468587
 10
1081.8164484574
 20
-813.3116755034
 10
1075.2245783826
 20
-820.4642844626
 10
1068.5365874442
 20
-827.407649837
 10
1061.7604458472
 20
-834.1334970869
 10
1054.9042288477
 20
-840.633810893
 10
1047.9761071291
 20
-846.9008447084
 10
1040.9843370648
 20
-852.9271299906
 10
1033.9372508795
 20
-858.7054851015
 10
1026.8432467189
 20
-864.2290238661
 10
1019.7107786418
 20
-869.4911637789
 10
1012.5483465452
 20
-874.4856338483
 10
1005.3644860349
 20
-879.20648207
 10
998.167758253
 20
-883.6480825198
 10
990.9667396763
 20
-887.8051420587
 10
983.7700118944
 20
-891.6727066402
 10
976.5861513841
 20
-895.2461672145
 10
969.4237192875
 20
-898.521265221
 10
962.2912512104
 20
-901.4940976637
 10
955.1972470498
 20
-904.1611217619
 10
948.1501608645
 20
-906.5191591726
 10
941.1583908002
 20
-908.5653997781
 10
934.2302690816
 20
-910.2974050347
 10
927.3740520821
 20
-911.713110879
 10
920.5979104851
 20
-912.8108301877
 10
913.9099195467
 20
-913.5892547879
 10
907.3180494719
 20
-914.0474570163
 10
900.8301559171
 20
-914.1848908247
 10
894.4539706274
 20
-914.0013924305
 10
888.1970922235
 20
-913.4971805123
 10
882.0669771455
 20
-912.6728559489
 10
876.0709307675
 20
-911.5294011036
 10
870.2160986912
 20
-910.068178653
 10
864.5094582306
 20
-908.2909299636
 10
858.9578100971
 20
-906.1997730162
 10
853.5677702946
 20
-903.797199882
 10
848.3457622354
 20
-901.086073753
 10
847.0792359008
 20
-900.3673724457
  0
LWPOLYLINE
  5
BF
330
1F
100
AcDbEntity
  8
0
  6
Continuous
 62
     7
370
    25
100
AcDbPolyline
 90
      125
 70
   128
 43
0.0
 10
1008.7215168884
 20
-364.3867277148
 10
1015.4491951945
 20
-362.4231297368
 10
1022.3773169132
 20
-360.6911244802
 10
1029.2335339127
 20
-359.2754186359
 10
1036.0096755096
 20
-358.1776993272
 10
1042.6976664481
 20
-357.399274727
 10
1049.2895365228
 20
-356.9410724986
 10
1055.7774300776
 20
-356.8036386902
 10
1062.1536153673
 20
-356.9871370844
 10
1068.4104937712
 20
-357.4913490026
 10
1074.5406088492
 20
-358.315673566
 10
1080.5366552272
 20
-359.4591284113
 10
1086.3914873035
 20
-360.9203508619
 10
1092.0981277641
 20
-362.6975995513
 10
1097.6497758976
 20
-364.7887564987
 10
1103.0398157001
 20
-367.1913296329
 10
1108.2618237593
 20
-369.9024557619
 10
1113.3095769095
 20
-372.9189039857
 10
1118.1770596478
 20
-376.2370795457
 10
1122.8584713031
 20
-379.8530281096
 10
1127.3482329488
 20
-383.7624404831
 10
1131.6409940508
 20
-387.9606577455
 10
1135.7316388449
 20
-392.442676802
 10
1139.6152924321
 20
-397.2031563458
 10
1143.2873265892
 20
-402.2364232235
 10
1146.7433652837
 20
-407.5364791959
 10
1149.9792898889
 20
-413.0970080859
 10
1152.9912440924
 20
-418.9113833064
 10
1155.7756384913
 20
-424.9726757564
 10
1158.3291548703
 20
-431.2736620793
 10
1160.6487501557
 20
-437.8068332704
 10
1162.7316600419
 20
-444.5644036263
 10
1164.5754022857
 20
-451.5383200227
 10
1166.1777796649
 20
-458.7202715116
 10
1167.5368825959
 20
-466.1016992257
 10
1168.6510914101
 20
-473.673806578
 10
1169.5190782838
 20
-481.4275697452
 10
1170.1398088206
 20
-489.3537484212
 10
1170.5125432843
 20
-497.442896829
 10
1170.6368374801
 20
-505.6853749776
 10
1170.5125432843
 20
-514.0713601501
 10
1170.1398088206
 20
-522.5908586094
 10
1169.5190782838
 20
-531.2337175083
 10
1168.6510914101
 20
-539.9896369884
 10
1167.5368825959
 20
-548.848182455
 10
1166.1777796649
 20
-557.7987970121
 10
1164.5754022857
 20
-566.8308140432
 10
1162.7316600418
 20
-575.9334699229
 10
1160.6487501557
 20
-585.0959168441
 10
1158.3291548703
 20
-594.3072357457
 10
1155.7756384913
 20
-603.556449325
 10
1152.9912440924
 20
-612.8325351193
 10
1149.9792898889
 20
-622.1244386418
 10
1146.7433652837
 20
-631.4210865555
 10
1143.2873265892
 20
-640.7113998694
 10
1139.6152924321
 20
-649.9843071417
 10
1135.7316388449
 20
-659.2287576733
 10
1131.6409940508
 20
-668.4337346781
 10
1127.3482329488
 20
-677.5882684108
 10
1122.8584713031
 20
-686.6814492406
 10
1118.1770596478
 20
-695.7024406522
 10
1113.3095769095
 20
-704.6404921595
 10
1108.2618237593
 20
-713.4849521178
 10
1103.0398157001
 20
-722.2252804168
 10
1097.6497758976
 20
-730.8510610422
 10
1092.0981277641
 20
-739.3520144882
 10
1086.3914873035
 20
-747.7180100079
 10
1080.5366552272
 20
-755.9390776865
 10
1074.5406088492
 20
-764.0054203221
 10
1068.4104937712
 20
-771.9074251018
 10
1062.1536153673
 20
-779.6356750572
 10
1055.7774300776
 20
-787.1809602868
 10
1049.2895365228
 20
-794.5342889315
 10
1042.6976664481
 20
-801.6868978907
 10
1036.0096755096
 20
-808.6302632651
 10
1029.2335339126
 20
-815.356110515
 10
1022.3773169131
 20
-821.856424321
 10
1015.4491951945
 20
-828.1234581365
 10
1008.4574251302
 20
-834.1497434187
 10
1001.4103389449
 20
-839.9280985296
 10
994.3163347843
 20
-845.4516372942
 10
987.1838667072
 20
-850.713777207
 10
980.0214346106
 20
-855.7082472764
 10
972.8375741003
 20
-860.4290954981
 10
965.6408463185
 20
-864.8706959479
 10
958.4398277417
 20
-869.0277554868
 10
951.2430999599
 20
-872.8953200683
 10
944.0592394495
 20
-876.4687806425
 10
936.8968073529
 20
-879.7438786491
 10
929.7643392759
 20
-882.7167110918
 10
922.6703351152
 20
-885.38373519
 10
915.6232489299
 20
-887.7417726007
 10
908.6314788657
 20
-889.7880132061
 10
901.703357147
 20
-891.5200184627
 10
894.8471401475
 20
-892.9357243071
 10
888.0709985505
 20
-894.0334436158
 10
881.3830076121
 20
-894.811868216
 10
874.7911375374
 20
-895.2700704444
 10
868.3032439825
 20
-895.4075042527
 10
861.9270586928
 20
-895.2240058586
 10
855.6701802889
 20
-894.7197939404
 10
849.5400652109
 20
-893.895469377
 10
843.5440188329
 20
-892.7520145317
 10
837.6891867566
 20
-891.2907920811
 10
831.9825462961
 20
-889.5135433917
 10
826.4308981625
 20
-887.4223864443
 10
821.04085836
 20
-885.0198133101
 10
815.8188503009
 20
-882.3086871811
 10
810.7710971507
 20
-879.2922389573
 10
805.9036144123
 20
-875.9740633972
 10
801.222202757
 20
-872.3581148334
 10
796.7324411114
 20
-868.4487024599
 10
792.4396800093
 20
-864.2504851975
 10
788.3490352153
 20
-859.768466141
 10
784.465381628
 20
-855.0079865971
 10
780.7933474709
 20
-849.9747197194
 10
777.3373087764
 20
-844.6746637471
 10
774.1013841712
 20
-839.114134857
 10
771.0894299677
 20
-833.2997596366
 10
768.3050355688
 20
-827.2384671866
 10
765.7515191898
 20
-820.9374808637
 10
763.4319239044
 20
-814.4043096726
 10
761.3490140183
 20
-807.6467393166
 10
759.5052717744
 20
-800.6728229203
 10
758.7418337294
 20
-797.4111589052
  0
ENDSEC
  0
SECTION
  2
OBJECTS
  0
DICTIONARY
  5
C
330
0
100
AcDbDictionary
281
     1
  3
ACAD_GROUP
350
D
  3
ACAD_LAYOUT
350
1A
  3
ACAD_MLINESTYLE
350
17
  3
ACAD_PLOTSETTINGS
350
19
  3
ACAD_PLOTSTYLENAME
350
E
  3
ACAD_SCALELIST
350
47
  0
DICTIONARY
  5
D
102
{ACAD_REACTORS
330
C
102
}
330
C
100
AcDbDictionary
281
     1
  0
DICTIONARY
  5
1A
102
{ACAD_REACTORS
330
C
102
}
330
C
100
AcDbDictionary
281
     1
  3
Layout1
350
1E
  3
Layout2
350
26
  3
Model
350
22
  0
DICTIONARY
  5
17
102
{ACAD_REACTORS
330
C
102
}
330
C
100
AcDbDictionary
281
     1
  3
Standard
350
18
  0
DICTIONARY
  5
19
102
{ACAD_REACTORS
330
C
102
}
330
C
100
AcDbDictionary
281
     1
  0
ACDBDICTIONARYWDFLT
  5
E
102
{ACAD_REACTORS
330
C
102
}
330
C
100
AcDbDictionary
281
     1
  3
Normal
350
F
100
AcDbDictionaryWithDefault
340
F
  0
DICTIONARY
  5
47
102
{ACAD_REACTORS
330
C
102
}
330
C
100
AcDbDictionary
281
     1
  3
A0
350
48
  3
A1
350
49
  3
A2
350
4A
  3
A3
350
4B
  3
A4
350
4C
  3
A5
350
4D
  3
A6
350
4E
  3
A7
350
4F
  3
A8
350
50
  3
A9
350
51
  3
B0
350
52
  3
B1
350
53
  3
B2
350
54
  3
B3
350
55
  3
B4
350
56
  3
B5
350
57
  3
B6
350
58
  3
B7
350
59
  3
B8
350
5A
  3
B9
350
5B
  3
C0
350
5C
  3
C1
350
5D
  3
C2
350
5E
  3
C3
350
5F
  3
C4
350
60
  3
C5
350
61
  3
C6
350
62
  3
C7
350
63
  3
C8
350
64
  3
C9
350
65
  3
D0
350
66
  3
D1
350
67
  3
D2
350
68
  0
LAYOUT
  5
1E
102
{ACAD_REACTORS
330
1A
102
}
330
1A
100
AcDbPlotSettings
  1

  2
none_device
  4

  6

 40
0.0
 41
0.0
 42
0.0
 43
0.0
 44
0.0
 45
0.0
 46
0.0
 47
0.0
 48
0.0
 49
0.0
140
0.0
141
0.0
142
1.0
143
1.0
 70
   688
 72
     1
 73
     0
 74
     5
  7

 75
    16
147
1.0
148
0.0
149
0.0
100
AcDbLayout
  1
Layout1
 70
     1
 71
     1
 10
0.0
 20
0.0
 11
420.0
 21
297.0
 12
0.0
 22
0.0
 32
0.0
 14
1.0000000000E+20
 24
1.0000000000E+20
 34
1.0000000000E+20
 15
-1.0000000000E+20
 25
-1.0000000000E+20
 35
-1.0000000000E+20
146
0.0
 13
0.0
 23
0.0
 33
0.0
 16
1.0
 26
0.0
 36
0.0
 17
0.0
 27
1.0
 37
0.0
 76
     0
330
1B
  0
LAYOUT
  5
26
102
{ACAD_REACTORS
330
1A
102
}
330
1A
100
AcDbPlotSettings
  1

  2
none_device
  4

  6

 40
0.0
 41
0.0
 42
0.0
 43
0.0
 44
0.0
 45
0.0
 46
0.0
 47
0.0
 48
0.0
 49
0.0
140
0.0
141
0.0
142
1.0
143
1.0
 70
   688
 72
     1
 73
     0
 74
     5
  7

 75
    16
147
1.0
148
0.0
149
0.0
100
AcDbLayout
  1
Layout2
 70
     1
 71
     2
 10
0.0
 20
0.0
 11
0.0
 21
0.0
 12
0.0
 22
0.0
 32
0.0
 14
0.0
 24
0.0
 34
0.0
 15
0.0
 25
0.0
 35
0.0
146
0.0
 13
0.0
 23
0.0
 33
0.0
 16
1.0
 26
0.0
 36
0.0
 17
0.0
 27
1.0
 37
0.0
 76
     0
330
23
  0
LAYOUT
  5
22
102
{ACAD_REACTORS
330
1A
102
}
330
1A
100
AcDbPlotSettings
  1

  2
none_device
  4
Letter_(8.50_x_11.00_Inches)
  6

 40
6.35
 41
6.35
 42
6.35000508
 43
6.35000508
 44
215.9
 45
279.4
 46
0.0
 47
0.0
 48
0.0
 49
0.0
140
0.0
141
0.0
142
1.0
143
1.0
 70
  1712
 72
     1
 73
     0
 74
     0
  7

 75
     0
147
1.0
148
0.0
149
0.0
100
AcDbLayout
  1
Model
 70
     1
 71
     0
 10
0.0
 20
0.0
 11
279.4
 21
215.9
 12
0.0
 22
0.0
 32
0.0
 14
0.0
 24
0.0
 34
0.0
 15
279.4
 25
215.9
 35
0.0
146
0.0
 13
0.0
 23
0.0
 33
0.0
 16
1.0
 26
0.0
 36
0.0
 17
0.0
 27
1.0
 37
0.0
 76
     0
330
1F
331
29
  0
MLINESTYLE
  5
18
102
{ACAD_REACTORS
330
17
102
}
330
17
100
AcDbMlineStyle
  2
Standard
 70
     0
  3

 62
   256
 51
90.0
 52
90.0
 71
     2
 49
0.5
 62
   256
  6
BYLAYER
 49
-0.5
 62
   256
  6
BYLAYER
  0
ACDBPLACEHOLDER
  5
F
102
{ACAD_REACTORS
330
E
102
}
330
E
  0
SCALE
  5
48
102
{ACAD_REACTORS
330
47
102
}
330
47
100
AcDbScale
 70
     0
300
1:1
140
1.0
141
1.0
290
     1
  0
SCALE
  5
49
102
{ACAD_REACTORS
330
47
102
}
330
47
100
AcDbScale
 70
     0
300
1:2
140
1.0
141
2.0
290
     0
  0
SCALE
  5
4A
102
{ACAD_REACTORS
330
47
102
}
330
47
100
AcDbScale
 70
     0
300
1:4
140
1.0
141
4.0
290
     0
  0
SCALE
  5
4B
102
{ACAD_REACTORS
330
47
102
}
330
47
100
AcDbScale
 70
     0
300
1:5
140
1.0
141
5.0
290
     0
  0
SCALE
  5
4C
102
{ACAD_REACTORS
330
47
102
}
330
47
100
AcDbScale
 70
     0
300
1:8
140
1.0
141
8.0
290
     0
  0
SCALE
  5
4D
102
{ACAD_REACTORS
330
47
102
}
330
47
100
AcDbScale
 70
     0
300
1:10
140
1.0
141
10.0
290
     0
  0
SCALE
  5
4E
102
{ACAD_REACTORS
330
47
102
}
330
47
100
AcDbScale
 70
     0
300
1:16
140
1.0
141
16.0
290
     0
  0
SCALE
  5
4F
102
{ACAD_REACTORS
330
47
102
}
330
47
100
AcDbScale
 70
     0
300
1:20
140
1.0
141
20.0
290
     0
  0
SCALE
  5
50
102
{ACAD_REACTORS
330
47
102
}
330
47
100
AcDbScale
 70
     0
300
1:30
140
1.0
141
30.0
290
     0
  0
SCALE
  5
51
102
{ACAD_REACTORS
330
47
102
}
330
47
100
AcDbScale
 70
     0
300
1:40
140
1.0
141
40.0
290
     0
  0
SCALE
  5
52
102
{ACAD_REACTORS
330
47
102
}
330
47
100
AcDbScale
 70
     0
300
1:50
140
1.0
141
50.0
290
     0
  0
SCALE
  5
53
102
{ACAD_REACTORS
330
47
102
}
330
47
100
AcDbScale
 70
     0
300
1:100
140
1.0
141
100.0
290
     0
  0
SCALE
  5
54
102
{ACAD_REACTORS
330
47
102
}
330
47
100
AcDbScale
 70
     0
300
2:1
140
2.0
141
1.0
290
     0
  0
SCALE
  5
55
102
{ACAD_REACTORS
330
47
102
}
330
47
100
AcDbScale
 70
     0
300
4:1
140
4.0
141
1.0
290
     0
  0
SCALE
  5
56
102
{ACAD_REACTORS
330
47
102
}
330
47
100
AcDbScale
 70
     0
300
8:1
140
8.0
141
1.0
290
     0
  0
SCALE
  5
57
102
{ACAD_REACTORS
330
47
102
}
330
47
100
AcDbScale
 70
     0
300
10:1
140
10.0
141
1.0
290
     0
  0
SCALE
  5
58
102
{ACAD_REACTORS
330
47
102
}
330
47
100
AcDbScale
 70
     0
300
100:1
140
100.0
141
1.0
290
     0
  0
SCALE
  5
59
102
{ACAD_REACTORS
330
47
102
}
330
47
100
AcDbScale
 70
     0
300
1/128" = 1'-0"
140
0.0078125
141
12.0
290
     0
  0
SCALE
  5
5A
102
{ACAD_REACTORS
330
47
102
}
330
47
100
AcDbScale
 70
     0
300
1/64" = 1'-0"
140
0.015625
141
12.0
290
     0
  0
SCALE
  5
5B
102
{ACAD_REACTORS
330
47
102
}
330
47
100
AcDbScale
 70
     0
300
1/32" = 1'-0"
140
0.03125
141
12.0
290
     0
  0
SCALE
  5
5C
102
{ACAD_REACTORS
330
47
102
}
330
47
100
AcDbScale
 70
     0
300
1/16" = 1'-0"
140
0.0625
141
12.0
290
     0
  0
SCALE
  5
5D
102
{ACAD_REACTORS
330
47
102
}
330
47
100
AcDbScale
 70
     0
300
3/32" = 1'-0"
140
0.09375
141
12.0
290
     0
  0
SCALE
  5
5E
102
{ACAD_REACTORS
330
47
102
}
330
47
100
AcDbScale
 70
     0
300
1/8" = 1'-0"
140
0.125
141
12.0
290
     0
  0
SCALE
  5
5F
102
{ACAD_REACTORS
330
47
102
}
330
47
100
AcDbScale
 70
     0
300
3/16" = 1'-0"
140
0.1875
141
12.0
290
     0
  0
SCALE
  5
60
102
{ACAD_REACTORS
330
47
102
}
330
47
100
AcDbScale
 70
     0
300
1/4" = 1'-0"
140
0.25
141
12.0
290
     0
  0
SCALE
  5
61
102
{ACAD_REACTORS
330
47
102
}
330
47
100
AcDbScale
 70
     0
300
3/8" = 1'-0"
140
0.375
141
12.0
290
     0
  0
SCALE
  5
62
102
{ACAD_REACTORS
330
47
102
}
330
47
100
AcDbScale
 70
     0
300
1/2" = 1'-0"
140
0.5
141
12.0
290
     0
  0
SCALE
  5
63
102
{ACAD_REACTORS
330
47
102
}
330
47
100
AcDbScale
 70
     0
300
3/4" = 1'-0"
140
0.75
141
12.0
290
     0
  0
SCALE
  5
64
102
{ACAD_REACTORS
330
47
102
}
330
47
100
AcDbScale
 70
     0
300
1" = 1'-0"
140
1.0
141
12.0
290
     0
  0
SCALE
  5
65
102
{ACAD_REACTORS
330
47
102
}
330
47
100
AcDbScale
 70
     0
300
1-1/2" = 1'-0"
140
1.5
141
12.0
290
     0
  0
SCALE
  5
66
102
{ACAD_REACTORS
330
47
102
}
330
47
100
AcDbScale
 70
     0
300
3" = 1'-0"
140
3.0
141
12.0
290
     0
  0
SCALE
  5
67
102
{ACAD_REACTORS
330
47
102
}
330
47
100
AcDbScale
 70
     0
300
6" = 1'-0"
140
6.0
141
12.0
290
     0
  0
SCALE
  5
68
102
{ACAD_REACTORS
330
47
102
}
330
47
100
AcDbScale
 70
     0
300
1'-0" = 1'-0"
140
12.0
141
12.0
290
     0
  0
ENDSEC
  0
EOF
